This chart will look wacky unless you
rotate your phone

Bragg, Billy and Wilco - "California Stars" Tabs

Here's a transcription of the solo in this great tune off the Mermaid Avenue album.


E |-----------------------------------------------------------------------------
B |-----------------------------------------------------------------------------
G |--------------------------0L----------------------0-----------2--------------
D |--------------------------0L----------------------0-----------0--------------
A |-----------------------------------------------------------------------------
E |--3-----------------------3L----------------------3--------------------------


--------------------------|
--------------------------|
---------2h-4L------------|
------------0L------------|
--------------------------|
--------------------------|


--------------------------------------------------------------------------------
--------------------------------------------------------------------------------
--4-----------2-----------2-----------0-----------0-----------------------------
--0-----------0-----------0-----------0-----------0-----------0-----------0h-2--
--------------------------------------------------------------------------------
--------------------------------------------------------------------------------


-----------------------|----------------------------|
-----------------------|----------------------------|
---------0-------------|--------2L----2--4-----5L---|
-----------------------|--0-----0L----0--0-----0L---|
-----------------------|----------------------------|
-----------------------|----------------------------|


----------------------------|----------------------------|
----------------------------|--------1L----1-------------|
--5--4-----2-----------0----|--------0L----0--2-----4L---|
--0--0-----0-----0h-2-------|--------2L----2-------------|
----------------------------|--3-----3L----3-------------|
----------------------------|----------------------------|


----------------------------|--------3L----3-------------|
----------------------------|--------0L----0-------------|
--4--2--2--0--0--------0----|--------0L----0-------------|
-----------------0--2-------|--------0L----0--------0L---|
----------------------------|-----------------0h-2-------|
----------------------------|--3-----3L----3-------------|


----------------------------|----------------------------||
----------------------------|----------------------------||
----------------------------|----------------------------||
--0--------0-----------0----|----------------------------||
-----0h-2--------0h-2-------|----------------------------||
----------------------------|----------------------------||

This file is the author's own work and represents his interpretation of this song. It's intended solely for private study, scholarship or research.