This chart will look wacky unless you
rotate your phone

Johnny Cash - Folsom Prison Blues Solo Tab

Here's a transcription of the great Luther Perkins solo in "Folsom Prison Blues."


E |----------------|--------7-----10----7--10L--|--10-7L-7-------|
B |-----------8s---|--9-------------------------|-----------8s---|
G |----------------|----------------------------|----------------|
D |----------------|----------------------------|----------------|
A |----------------|----------------------------|----------------|
E |----------------|----------------------------|----------------|


--------7-----10----7--10L--|--10L---10------|--------7-----10----7--10L--|
--9-------------------------|-----------8s---|--9-------------------------|
----------------------------|----------------|----------------------------|
----------------------------|----------------|----------------------------|
----------------------------|----------------|----------------------------|
----------------------------|----------------|----------------------------|


--10-7L-7-------|--------7-----10----7--10L--|--10----7-------------------|
-----------8s---|--9-------------------------|--------------9-------------|
----------------|----------------------------|--------------------9-------|
----------------|----------------------------|----------------------------|
----------------|----------------------------|----------------------------|
----------------|----------------------------|----------------------------|


--------5--5L-5--5--5-------|--------5--5L-5--0----------|
--------5--5L-5--5--5-------|--------5--5L-5-----0-------|
--------6--6L-6--6--6-------|--------6--6L-6-------------|
--------7-----------7-------|--------7-------------------|
--0-------------------------|--0-------------------------|
----------------------------|----------------------------|


--------5--5L-5--0----------|--------9--9L-9--0----------|
--------5--5L-5-----0-------|--------10-10L10----0-------|
--6-----6--6L-6-------------|--9-----9--9L-9-----0-------|
----------------------------|----------------------------|
----------------------------|----------------------------|
----------------------------|----------------------------|


--------0--0L-0--0----------|--------0--0L-0--0----------|
--------0--0L-0--0----------|--------0--0L-0--0----------|
--------1--1L-1--1--0-------|--------1--1L-1--1--0-------|
--------2-------------------|--------2-------------------|
--------2-------------------|--------2-------------------|
--0-------------------------|--0-------------------------|


--------0--0L-0--0----------|--------0--0L-0--0----------|
--------0--0L-0--0----------|--------0--0L-0--0----------|
--------1--1L-1--1--0-------|--------1--1L-1--1--0-------|
--------2-------------------|--------2-------------------|
--------2-------------------|--------2-------------------|
--0-------------------------|--0-------------------------|


--------2--2L-2--2----------|--------2--2L-2--2----------|----------|----------|
--------0--0L-0--0----------|--------0--0L-0--0----------|----------|----------|
--------2--2L-2--2--2-------|--------2--2L-2--2--2-------|----------|----------|
--------1-------------------|--------1-------------------|----------|----------|
--2-------------------------|--2-------------------------|--2--2----|--1-------|
----------------------------|----------------------------|----------|-----3b---|


-------||
-------||
-------||
-------||
-------||
--0----||

This file is the author's own work and represents his interpretation of this song. It's intended solely for private study, scholarship or research.