James Bond Theme
By Monty Norman

Sequence: A  B  C  B  C  (rest 2 measures)  D  D  E (rest 1 measure)  B  C  F
 
A
e:--------------|-----------|----------|----------|
B:--------------|-----------|----------|----------|
G:--------------|-----------|----------|----------|
D:--------------|-----------|----------|----------|
A:2-------3-----|4-----3----|2----3----|4----3----|
E:--------------|-----------|----------|----------|
 
Picking Pattern for Part B:
 D DUD D   D D D
 1 + 2 + 3 + 4 +  
 
B
e:------------------------|------------------------|------------------------|
B:------------------------|------------------------|------------------------|
G:------------------------|------------------------|------------------------|
D:------------------------|------------------------|------------------------|
A:------------------------|------------------------|------------------------|
E:0--2--2--2--2--0--0--0--|0--3--3--3--3--2--2--2--|0--2--2--2--2--0--0--0--|
 
 
e:------------------------|------------------------|------------------------|
B:------------------------|------------------------|------------------------|
G:------------------------|------------------------|------------------------|
D:------------------------|------------------------|------------------------|
A:------------------------|------------------------|------------------------|
E:0--3--3--3--3--2--2--2--|0--2--2--2--2--0--0--0--|0--3--3--3--3--2--2--0--|
 
C
e:------------------|-----------|
B:------------------|-----------|
G:------------------|-----------|
D:1--0--------------|-----------|
A:------------2--0--|2----------|
E:------------------|-----------|
 
D
e:-------------------|------------|-----------------|----------|
B:--------4--3-------|------------|-----------------|----------|
G:-------------------|3--4--------|-----------------|----------|
D:2--5------------5--|------------|5--4-------2-----|----------|
A:-------------------|------------|--------2-----4--|----------|
E:-------------------|------------|-----------------|----------|
                                                 
e:-------------------|------------|-----------------|----------|
B:--------4--3-------|------------|-----------------|----------|
G:-------------------|3--4--------|-----------------|----------|
D:2--5------------5--|------------|5--4-------1--2--|----------|
A:-------------------|------------|--------2--------|----------|
E:-------------------|------------|-----------------|----------|
 
 
E
e:----------------------|-------------------|------------------|---------|
B:----------------------|-------------------|------------------|---------|
G:·---------------------|-------------------·|-4--4------4--4---|-4--4-4-4|
D:·2--2----2--4--2--4---|5--5---5--4--2--4--·|------------------|---------|
A:----------------------|-------------------|-------2---------2|---------|
E:----------------------|-------------------|------------------|---------|
 
 
F
e:----------------------|-------------------|------------------|-2-------|
B:----------------------|-------------------|------------4--3--|-2-------|
G:----------------------|----------------3--|2-------2---------|-0-------|
D:--------1--0----------|4--3-------0-------|-----3------------|-2-------|
A:-------------------2--|--------2----------|------------------|-2-------|
E:0--3------------3-----|-------------------|------------------|-0-------|


Tab Player For Guitar Pro Tabs:



This file is the author's own work and represents his interpretation of this song. It's intended solely for private study, scholarship or research.

Leave a Comment

Your email address will not be published. Required fields are marked *