This chart will look wacky unless you
rotate your phone


Rollover DJ

Jet

 
|------------------------------------------------
|------------------------------------------------
|----------------7-7---x-------------------------
|-5-7-7-5-7--5-5-5-5---x-5-7-7-5-7--5-5-------x--
|-3-5-5-3-5--3-3-------x-3-5-5-3-5--3-3-5-5---x--
|---------------------------------------3-3---x--
  Intro Riff 
 
|------------------------------|
|------------------------------|
|------7-----7-----------------|
|-7----7-----7-----12------12--|
|-5------8h9----9---9--10--10--|
|---------------7---7---8---8--|
  Verse Riff

 

Intro Riff x2

 

Verse 1 (w/verse riff):

Got your rhymes going round in my head,
Got your supersonic beats mixin' up my Keds
so dance little DJ come on,

                    A5      C5
What's your name?

I wanna move, but it just dont feel right
You've been playin other peoples songs all night,
Tell me what you're tryin to say,
                    A5      C5
What's your name?

Chorus:

D5                C5

Hey, roll over DJ,

                       F5             G5
your spinnin’ away, all my time

D5                                    C5
Hey, who cares what you play,

                            F5               G5
Say what ever you say, I don’t mind

D5                   F5                    G5
Hey roll over DJ, if you don’t mind

Intro Riff

 

Verse 2 (w/verse riff):

Well I know that you think you’re a star

A pill poppin’ jukebox is all that you are

So tell me it ain’t that way

                   A5        C5

What’s your name?

 

Chorus


Solo Break:

 

|----------------|---------------|---------------|---------------|
|----------------|---------------|---------------|---------------|
|----------------|---------------|7---9---7-9---7|--7-9--10---9--|
|-7---9---7-9---5|--5-7---5-5-7--|5---5---5-5---5|--5-5---5---5--|x3
|-5---5---5-5---3|--3-3---3-3-3--|---------------|---------------|

|----------------|---------------|---------------|---------------|

  1 + 2 + 3 + 4 + 1 + 2 + 3 + 4 + 1 + 2 + 3 + 4 + 1 + 2 + 3 + 4 +

 

|----------------|---------------|---------------|---------------|
|----------------|---------------|---------------|---------------|
|----------------|---------------|---------------|---------------|
|-7-7-7---7---7--|10-1010--1010--|1212-1212----12|Hold 3 measures|
|-5-5-5---5---5--|8---8-8---8-8--|1010-1010----10|---------------|

|----------------|---------------|---------------|---------------|

  1 + 2 + 3 + 4 + 1 + 2 + 3 + 4 + 1 + 2 + 3 + 4 + 1 + 2 + 3 + 4 +

 

Chorus

 

D5                   F5                    G5
Hey roll over DJ, if you don’t mind

D5                   F5                    G5
Hey roll over DJ, if you don’t mind

 

Outro:

|---------------------------------------------
|---------------------------------------------
|----------------7-7---x----------------------
|-5-7-7-5-7--5-5-5-5---x-5-7-7-5-7--5-5-------
|-3-5-5-3-5--3-3-------x-3-5-5-3-5--3-3-7-7---

|---------------------------------------5-5---


This file is the author's own work and represents his interpretation of this song. It's intended solely for private study, scholarship or research.