This chart will look wacky unless you
rotate your phone

All-Time Quarterback (Ben Gibbard) - "Sock Hop" Tabs

Cool early demo from Ben Gibbard's pre-Death Cab For Cutie days.


E ||---------------------------|----------------------------|
B ||---------------------------|----------------------------|
G ||o--------------------------|----------------------------|
D ||o5-----5-----5-----5-------|--5-----5-----5-----5-------|
A ||-3-----3-----3-----3-------|--0-----0-----0-----0-------|
E ||---------------------------|----------------------------|


----------------------------|---------------------------||
----------------------------|---------------------------||
--5-----5-----5-----5-------|--5-----5-----7-----7-----o||
--3-----3-----3-----3-------|--0-----0-----5-----5-----o||
----------------------------|---------------------------||
----------------------------|---------------------------||


----------------------------|----------------------------|
----------------------------|----------------------------|
--4-----4--4--4-----4--4----|--9-----9--9--7--7--7-------|
--2-----2--2--3-----3--3----|--7-----7--7--5--5--5-------|
----------------------------|----------------------------|
----------------------------|----------------------------|


----------------------------|----------------------------||
----------------------------|----------------------------||
--4-----4--4--4-----4--4----|--2-----2--2--2--2--2-------||
--2-----2--2--3-----3--3----|--0-----0--0--3--3--3-------||
----------------------------|----------------------------||
----------------------------|----------------------------||

This file is the author's own work and represents his interpretation of this song. It's intended solely for private study, scholarship or research.