This chart will look wacky unless you
rotate your phone

 

All Apologies

Nirvana


Drop D tuning (tune 6th string down one step).

Cobain also tunes his whole guitar down ½ step.

 

Verse Riff:

Eb ----------------------|----------------------|----------------------|-
Bb ----------------------|----------------------|----------------------|-
Gb ----------------------|----------------------|----------------------|-
Db ----------------------|----------12-12-10-9--|----------------------|-
Ab -9-9-10-9-12-12-10-9--|---9-10-9-------------|-9-9-10-9-12-12-10-9--|-
Db -0-0-------0----------|-0--------------------|-0-0-------0----------|-

 

Eb ---------------------|-
Bb ---------------------|-
Gb ----------11-11-9----|-
Db -----------0------12-|-
Ab ---9-10-9------------|-
Db -0-------------------|-

 

Intro:  Verse riff x2

 

Verse 1 (w/verse riff):

What else should I be
All apologies
What else should I say
Everyone is gay
What else could I write
I don't have the right
What else should I be
All apologies

Chorus 1 (w/folk strum):

G
In the sun
In the sun I feel as one
In the sun
In the sun

        A
I'm married
Buried

 

Verse 2:

I wish I was like you
Easily amused
Find my nest of salt
Everything’s my fault
I'll take all the blame
Aqua seafoam shame
Sunburn with freezeburn
Choking on the ashes of an enemy

Chorus 2 (w/folk strum):

G
In the sun
In the sun I feel as one
In the sun
In the sun

        A
I'm married
Buried
Married
Buried,  Yeah yeah yeah yeah

 

Verse riff x2

 

(w/verse riff):

All in all is all we are (fade out)


This file is the author's own work and represents his interpretation of this song. It's intended solely for private study, scholarship or research.