This chart will look wacky unless you
rotate your phone

 

Another Lonely Day

Ben Harper

 

Guitar tuned 1 step lower (DAFCGD)

 

Verse Progression:

     C               Am              Em              G
d |------------------------------------------------------------------|
G |------1-1---1---1-----1-1---0-1-0-----0-0---0-0-0-----3-3---3---3-|
C |------0-0---0---0-----2-2---0-2-0-----0-0---0-0-0-----0-0---0---0-|
F |------2-2-------------2-2---2-2-2-----2-2---2-2-2-----0-0---0---0-|
A |--3---3-3-3---2---0---0---0---0-------2-------2-------2-------0---|
D |----------------------------------0---0---0-------3---3---3-------|
     1 + 2 + 3 + 4 + 1 + 2 + 3 + 4 + 1 + 2 + 3 + 4 + 1 + 2 + 3 + 4 +
     B   D U B U B U B   D U B U D U B   D U B U D U B   D U B U B U

 

Chorus Progression:

     F              Am               G
d |------------------------------------------------------------------|
G |------1-1---1-1-1-----1-1---1-1-1-----3-3---3---------3-3---3-3-3-|
C |------2-2---2-2-2-----2-2---2-2-2-----0-0---0---------0-0---0-0-0-|
F |------3-3---3-3-3-----2-2---2-2-2-----0-0---0-2p0-----0-0---0-0-0-|  
A |------3-------3---0---0---0---0-------2---------------2-------2---|
D |--1---1---1-----------------------3-------3-------3-------3-------|
     1 + 2 + 3 + 4 + 1 + 2 + 3 + 4 + 1 + 2 + 3 + 4 + 1 + 2 + 3 + 4 +
     B   D U B U D U B   D U B U D U B   D U B U B   B   D U B U D U

 

Verse 1:

Yes indeed I'm, alone again

And here come emptiness, crashing in

Its either love or hate I cant find in between

'Cause I've been with witches and I have been with a queen

 

Chorus:

It wouldn't have worked out anyway

So now it's just another lonely day

Further along we just may

But for now its just another lonely day

 

Verse 2:

Wish there was something I could say or do

I can resist anything but the temptation from you

But I'd rather walk alone then chase you around

I'd rather fall myself then let you drag me on down

 

Chorus

 

Verse 3:

Yesterday seems like a life ago

'Cause the one I love today I hardly know

You I held so close in my heart oh dear

Grow further from me with every fallin' tear

 

Chorus, repeat last line 3x

 

Hold last G


This file is the author's own work and represents his interpretation of this song. It's intended solely for private study, scholarship or research.