This chart will look wacky unless you
rotate your phone


Give me Novacaine
Green Day

Intro: / A - - - / - - - - / F#m - - - / - - - - /
       / Bm - - - / - - - - / E - - - / - - - - /
 
A                       F#m 
Take away the sensation inside
Bm                          E
Bitter sweet migraine in my head
      A                                  F#m
It's like a throbbing tooth ache of the mind
Bm                           E
I can’t take this feeling anymore
 
Chorus:
D5                            A5
Drain the pressure from the swelling
D5                    A5    
The sensation’s overwhelming
D5                           F#5        
Give me a kiss goodnight and everything will be alright
B5                           E5
tell me that I wont feel a thing
               
So give me Novacaine
 
Repeat Intro
 
A                      F#m
Out of body and out of mind
Bm                         E
Kiss the demons out of my dreams
    A                             F#m
I get the funny feeling, that's alright
Bm                         E
Jimmy says its better than air
 
I'll tell you why
 
Chorus
 
A5 x4
 
 
 
 
 
 
 
 
 
 
 
 
 
Bridge:
Guitar 1 plays the chords while guitar 2 plays 
what's tabbed underneath.
 
   F#5                        A5                               x3
e|-------------------------------------------------------------|
B|---------------9-10-10-9--------------------14---------------|
G|----------11-------------11------------14-------14-------14--|
D|----11-11----11-----------------14-14-----14-------14-14-----|
A|-/9-------------------------/12------------------------------|
E|-------------------------------------------------------------|
 
   B5                      E                      
e|-------------------------------------------------------------|
B|----------10---10--------9-9-9-9--10101010-1212121212121212--|
G|------12-----12---12-----9-9-9-9--9-9-9-9--9-9-9-9-9-9-9-9---|
D|----11---11---------11---------------------------------------|
A|-/9----------------------------------------------------------|
E|-------------------------------------------------------------|
                                                
Chorus
 
Repeat Intro 

This file is the author's own work and represents his interpretation of this song. It's intended solely for private study, scholarship or research.