This chart will look wacky unless you
rotate your phone

Purple Haze Intro
Jimi Hendrix

Intro

                        
e----------------------------------------------------------
B------------------------8b--------------------------------
G----------------8-----7-----------------------------------
D---8---8----8---8--/9-----7~~~~~~~g7\-5-0-----------------
A--------------------------------------------5/7~~~~~~~g7\-
E-6---6----6---6---------------------------0---------------
 
e----------------------------------------------------------
B------8b--------------------------------------------------
G----7-----------------------------------------------------
D-/9------7~~~~~g7\-/5-0------------------5-7-7Bb-5~~~~~~~-
A--------------------------5/7~~~~~g7\-5/7-----------------
E------------------------0---------------------------------
 
e----------------------------------------------------------
B----------------------------------------------------------
G-------------------------------------------7-7-9~~~~~-----
D-5-0-----------------5-7Bb-5/7~~~~~-5-0-/9----------------
A--------------7\-5/7--------------------------------------
E-----0-3~~~~~~----------------------------------------12\-

This file is the author's own work and represents his interpretation of this song. It's intended solely for private study, scholarship or research.