This chart will look wacky unless you
rotate your phone

"Like the Weather" Riff by 10,000 Maniacs

This is a simple tab of the main riff of "Like the Weather."


E |----------------------------|----------------------------|
B |----------------------------|--------------------0--3----|
G |----------------------------|-----0--0--0--2--2----------|
D |-----------0--0--0--2--2----|----------------------------|
A |--2--2----------------------|----------------------------|
E |----------------------------|----------------------------|


--0-------------------------||
--------3-------------------||
----------------------------||
----------------------------||
----------------------------||
----------------------------||

This file is the author's own work and represents his interpretation of this song. It's intended solely for private study, scholarship or research.