This chart will look wacky unless you
rotate your phone


Pink Moon

Nick Drake

 

Strum:  D DU UD DU UDUDU

        1 + 2 + 3 + 4 +  

 

Chorus x4

 

Verse:

I saw it written and I saw it say
Pink moon is on its way
And none of you stand so tall
Pink moon gonna get you all

Chorus:

          Ax2

It's a pink moon, yes a pink moon

Bx2                                           Ax2
Pink, pink, pink, pink, pink moon.

Bx2                                           A
Pink, pink, pink, pink, pink moon.

 

Instrumental

 

Verse:

I saw it written and I saw it say
Pink moon is on its way
And none of you stand so tall
Pink moon gonna get you all

 

          Ax3

It's a pink moon, yes a pink moon

 

 

 

 

 

 

 

 

 

 

 

 

Chorus A:
       D   D U   U D   D U   U   U   U
F#-----0---0-0---0-0---0-0---0---0---0-
D------0---0-0---0-0---0-0---0---0---0-
G------2---2-2---2-2---2-0---0---0---0-
D------0---0-0---0-0---0-2---0---0---0-
A------0---0-0---0-0---0-0---2---0---0-
D------0---0-0---0-0---0-0---0---2---0-
       1   +   2   +   3   +   4   +
 
Chorus B:
       D   D U   U D   D U   U D U D U
F#-----0---0-0---0-0---0-0---0-0-0-0-0-
D------0---0-0---0-0---0-0---0-0-0-0-0-
G------0---0-0---0-0---0-0---0-0-0-0-0-
D------2---2-2---2-2---2-2---2-2-2-2-2-
A------2---2-2---2-2---2-2---2-2-2-2-2-
D------2---2-2---2-2---2-2---2-2-2-2-2-
 
 

 

Verse:

       D   D U   U D   D U   U D U D U 
F#-----7---7-7---7-7---7-7---7-7-7-7-7-
D------7---7-7---7-7---7-7---7-7-7-7-7-
G------9---9-9---9-7---7-7---7-7-7-7-7- (REPEAT)
D------7---7-7---7-7---7-7---7-7-7-7-7-
A------7---7-7---7-7---7-7---7-7-7-7-7-
D------7---7-7---7-7---7-7---7-7-7-7-7-
       1   +   2   +   3   +   4   +

 

       D   D U   U D   D U   U D U D U 
F#-----5---5-5---5-5---5-5---5-5-5-5-5-
D------5---5-5---5-7---7-7---7-7-7-7-7-
G------7---7-7---7-5---5-5---5-5-5-5-5- (REPEAT)
D------5---5-5---5-5---5-5---5-5-5-5-5-
A------5---5-5---5-5---5-5---5-5-5-5-5-
D------5---5-5---5-5---5-5---5-5-5-5-5-
       1   +   2   +   3   +   4   +

This file is the author's own work and represents his interpretation of this song. It's intended solely for private study, scholarship or research.