This chart will look wacky unless you
rotate your phone



Yellow Leadbetter Solo
Pearl Jam

Note:  I got this tab off the web—some of it’s wrong.

 
-(1:49)- w/ distortion or overdrive
            
e|--------------------------------------------------------------|
B|-----------------12------hold bend----------------------------|
G|----------9---9-------11b13-13-13b11p9h11vvvvvvv--------------|
D|----9h11------------------------------------------------------|
A|--------------------------------------------------------------|
E|--------------------------------------------------------------|
 
 |--------------------------------------------------------------|
 |--------------------------------------------------------------|
 |----9---------------------------------------------------------|
 |-------11--9--------------------------------------------------|
 |---------------9b10b9--7-----7--9--7vvv--7-----7-----9b11-----|
 |--------------------------9-----------------9-----9-----------|
 
 |-----------------9--------------------------------------------|
 |-------12b14b12-----12--9----hold bend------------------------|
 |---9-----------------------11b13--13b11--9-11wwwwwwww*--------|
 |--------------------------------------------------------------|
 |--------------------------------------------------------------|
 |--------------------------------------------------------------|
 
 *Tremolo with whammy bar
 
 |--------------------------------------------------------------|
 |----------------------12------12-14vvv--14-12-14-12-14-12-----|
 |----11--9------12/13------13----------------------------------|
 |-----------11-------------------------------------------------|
 |--------------------------------------------------------------|
 |--------------------------------------------------------------|
 
 |---15b16b15--12------12--14--12-12\--------9-----------9------|
 |-----------------14--------------------9-9---9---12b14---12---|
 |--------------------------------------------------------------|
 |--------------------------------------------------------------|
 |--------------------------------------------------------------|
 |--------------------------------------------------------------|
 
 |--------------------------------------------------------------|
 |---9----------------------------------------------------------|
 |------11-11p9p6--9vvvvvvvv---11--9------9--11--9-11b14b11-----|
 |------------------------------------11------------------------|
 |--------------------------------------------------------------|
 |--------------------------------------------------------------|

This file is the author's own work and represents his interpretation of this song. It's intended solely for private study, scholarship or research.