“Star Wars Theme”

 

 

e-----------------3---------3------------|
B---------3-1-0-----3-1-0-----3-1-0-1----|
G-------0-------2---------2-----------2--|  <--- repeat two times
D-0-0-0----------------------------------|
A----------------------------------------|
E----------------------------------------|
 
e --------------------------------------------------|
B ---------1-0--------------------------1-0-----3---|
G -------------2-0-0-2-4-2------------------2-0---2-|
D -0-0-2-2-----------------2-4--0-0-2-2-------------|
A --------------------------------------------------|
E --------------------------------------------------|
 
 
E ---------------------------------3-1----------------|
B ---------1-0-----------------3-3-----4-2-1-------3--|
G -------------2-0-0-2-4-2-------------------3-2-0----|
D -0-0-2-2-----------------2-4------------------------|
A ----------------------------------------------------|
E ----------------------------------------------------|
 
e----------------------------------------|
B--------------------1-------------------|
G------------------0---2-----------------|
D--0-0-0-0-0-0-0-2-----------------------|
A----------------------------------------|
E----------------------------------------|
 
e-----------------3---------3------------|
B---------3-1-0-----3-1-0-----3-1-0-1----|
G-------0-------2---------2-----------2--|
D----------------------------------------|
A----------------------------------------|
E----------------------------------------|
 
e-----------------3---------3------------|
B---------3-1-0-----3-1-0-----3-1-0-1----|
G-------0-------2---------2-----------2--|
D-0-0-0----------------------------------|
A----------------------------------------|
E----------------------------------------|


Tab Player For Star Wars Theme tab:



This file is the author's own work and represents his interpretation of this song. It's intended solely for private study, scholarship or research.

Leave a Comment

Your email address will not be published. Required fields are marked *