FREE Christmas Carol Songbook

You'll be caroling sooner than you can say "Wenceslas"

Join my mailing list to get this ready-to-print professional-quality guitar songbook of a dozen popular Christmas songs.

    This chart will look wacky unless you
    rotate your phone

    Clocks

    Coldplay

     

    Most of song

     

    G|----------------|----------------|----------------|----------------||

    D|----------------|-8-8-8-8-8-8-8-8|-8-8-8-8-8-8-8-8|----------------||

    A|-6-6-6-6-6-6-6-6|----------------|----------------|-8-8-8-8-8-8-8-8||

    E|----------------|----------------|----------------|----------------||

     

     

    Interludes

     

    G|----------------|-----------------|------------------|--------------------||

    D|-------------6-8|-8-8-8-8-8-8-8/10|-8-8-8-6-6-6-5-5--|-6-6-6-6-6-6-6-6----||

    A|-6-6-6-6-6-6----|-----------------|------------------|--------------------||

    E|----------------|-----------------|------------------|--------------------||

     

    Bridge

     

    G|----------------|----------------|----------------|-------------------------||

    D|----------------|----------------|----------------|-------------------------||

    A|-9-9-9-9-9-9-9-9|-9-9-9-9-9-9-9-9|----------------|-11-11-11-11-11-11-11-11-||

    E|----------------|----------------|-9-9-9-9-9-9-9-9|-------------------------||

     

     

    G|----------------|----------------|----------------|

    D|----------------|----------------|----------------|

    A|-9-9-9-9-9-9-9-9|-9-9-9-9-9-9-9-9|-9-9-9-9-9-9-9-9|

    E|----------------|----------------|----------------|

     

    G|------------------------|-----------------|---------------|---------------|

    D|------------------------|-----------------|---------------|---------------|

    A|/21-21-21-21-21-21-21-21|\6---------------|---------------|---------------|

    E|------------------------|-----------------|---------------|---------------|


    This file is the author's own work and represents his interpretation of this song. It's intended solely for private study, scholarship or research.